Cancionero

Jump

Van Halen

(1984) MCMLXXXIV

{title: Jump }
{artist: Van Halen}
{album: (1984) MCMLXXXIV }
{ukegeeks-meta: }                   

{define: C frets x 7 8 7 fingers x 1 3 2}
{define: G frets X 7 7 5 fingers X 2 3 1}
{define: F frets X 5 5 3 fingers X 2 3 1}
{define: Fadd9 frets 0 0 1 0 fingers 0 0 1 0}
{define: C(3) frets 5 4 3 x fingers 3 2 1 x}
{define: Gsus4 frets 0 2 3 3 fingers 0 1 2 3}
{define: Am frets 2 0 0 0 fingers 2 0 0 0}
{define: Em frets x 4 3 2 fingers x 3 2 1}
{define: Dm frets 2 2 1 0 fingers 2 3 1 0}


{c:Riff #1}
{start_of_tab} 

A|-5--7--3--3-5-5--7--3-0---3---------------|
E|-7--8--5--5-7-7--8--5-1-3-3---------------|
C|-7--7--5--5-7-7--7--5-0-4-2---------------|
G|------------------------5-0---------------|
{end_of_tab} 

{c:Riff #2}
{start_of_tab} 

A|---3----2-5/7-5-5-------------------------|
E|--5-5--3----------------------------------|
C|-5----4-----------------------------------|
G|------------------------------------------|
{end_of_tab} 

{c:Riff #2b}
{start_of_tab} 

A|---3----2-10-12-10-10---------------------|
E|--5-5--3----------------------------------|
C|-5----4-----------------------------------|
G|------------------------------------------|
{end_of_tab} 

{c:Verso 1 w/Riff #1}
I get up[G][C][F] and nothin' gets me [G]down[C][F][Fadd9][C(3)][Gsus4]
You got it [G][C][F]tough, I've seen the toughest [G]around[C][F][Fadd9][C(3)][Gsus4]
And I know[G][C][F], baby, just how you [G]feel[C][F][Fadd9][C(3)][Gsus4]
You got to [G]roll[C][F] with the punches and get to what's [G]real[C][F][Fadd9][C(3)][Gsus4]

{c:Pre-estribillo w/Riff #2}
Ah, can't you [Am]see me standin' here
I got my back against the record machine[F][Em][Dm]
I ain't the worst that you've seen[F][Em][Dm]
Ah, can't you see what I mean?[F][Em][G]

{soc}
{c:Estribillo w/Riff #1}
Ah, might as well jump[G] (jump)[C][F] 
Might as well [G]jump[C][F][Fadd9][C(3)][Gsus4]
Go ahead and jump[G] (jump)[C][F] 
Go ahead and [G]jump[C][F][Fadd9][C(3)][Gsus4]
{eoc}

{c:Verso 2 w/Riff #1}}
Ow, oh, [G]hey, you[C][F]
Who said that?
[G]Baby, [C]how you [F]been?[Fadd9][C(3)][Gsus4]
You say you [G]don't [C]know[F]
You won't [G]know until you [C]begin[F][Fadd9][C(3)][Gsus4]

{c:Pre-estribillo w/Riff #2}
So can't ya [Am]see me standin' here
I got my back against the record machine[F][Em][Dm]
I ain't the worst that you've seen[F][Em][Dm]
Ah, can't you see what I mean?[F][Em][G]

{soc}
{c:Estribillo w/Riff #1}
Ah, might as well jump[G] (jump)[C][F] 
Go ahead and [G]jump[C][F][Fadd9][C(3)][Gsus4]
Might as well jump[G] (jump)[C][F] 
Go ahead and [G]jump[C][F][Fadd9][C(3)][Gsus4]
Jump
{eoc}